[[AudioSoftware]] for [[GNU]]/[[Linux]]

[[ToDo]] port wired to [[Debian]]

http://bloodshed.net/wired/

http://linuxfr.org/2004/11/10/17613.html

# ed2k://|file|wired-0.1.tar.gz|1148460|7e217b303f4d9ec9e4595ca220f26a96|

Wired uses several libraries you need to install prior compiling it:

[[Community]]

Software

[[Guitar]]

Tablature :

A|-------------------------------|-------------------------------|
E|-------------------------------|-------------------------------|
C|-------------------------------|-------------------------------|
G|-------10---10---10---10h12-12-|-------10---10---10---10-12-12-|
D|-------------------------------|-------------------------------|
A|-8-8-8----8----8----8----------|-6-6-6----6----6----6----------|
( on std : 5 5 7 )                ( on std : 3 5 7)
A|-------------------------------|-------------------------------||
E|-------------------------------|-------------------------------||
C|-------------------------------|-------------------------------||
G|----------13---13---13---------|----------13---17---13---17-13-||
D|-------------------------------|-------------------------------||
A|-11-11-11---11---11----11-10-11|-13-13-13---13---13---13-------||
( on std : 1 3 1 0 1 )                ( on std : 3 3 3)

[[ToDo]] : [[MP3]] / [[OGG]] player

MISC

MORE

audiosoftware.txt · Last modified: 2020/09/08 20:40 (external edit)
 
Except where otherwise noted, content on this wiki is licensed under the following license: CC Attribution-Share Alike 3.0 Unported
Recent changes RSS feed Donate Powered by PHP Valid XHTML 1.0 Valid CSS Driven by DokuWiki