Table of Contents

@related : Guitar Music E G

Tab

                                                                            |
  ::1...+...2...+...3...+...4...+...:1...+...2...+...3...+...4...+...::
e ||--------------------------------|--------------------------------||
b ||--------------------------------|--------------------------------||
g ||--------------------------------|--------------------------------||
D ||--------------------------------|--------------------------------||
A ||--------------------------------|--------------------------------||
E ||--------------------------------|--------------------------------||

Tune

  • sixth (lowest) string: E (a minor thirteenth below middle C : 82.4Hz)
  • fifth string: A (a minor tenth below middle C : 110Hz)
  • fourth string: d (a minor seventh below middle C : 146.8Hz)
  • third string: g (a perfect fourth below middle C : 196.0Hz)
  • second string: b (a minor second below middle C : 246.92Hz)
  • first (highest) string: e' (a major third above middle C : 329.6Hz)
Hz 82                110          147
    E   F   F#  G   G#  A   A#  B    C   C#  D   D#   E   F   F#  G
e ||--------------------------------|---------------  ----------------||
b ||--------------------------------|---------------  ----------------||
g ||--------------------------------|---------------  ---------0---1--||
D ||--------------------------------|--------0---1--  2----3---5---6--||
A ||--------------------0---1---2---|3---4---5---6--  7----8---9--10--||
E ||0---1---2---3---4---5---6---7---|8---9---10--11-  12--13--14--15--||
              196             247
    E   F   F#  G   G#  A   A#  B    C   C#  D   D#   E   F   F#  G
e ||--------------------------------|---------------  0---1---2---3---||
b ||----------------------------0---|1---2---3---4--  5---6---7---8---||
g ||------------0---1---2---3---4---|5---6---7---8--  9---10--11--12--||
D ||2---3---4---5---6---7---8---9---|10--11--12--13-  14--15--16--17--||
A ||7---8---9---10--11--12--13--14--|15--16--17--18-  19--20--21--22--||
E ||12--13--14--15--16--17--18--19--|20--21--22--24-  25--26--27--28--||
  329
    E   F   F#  G   G#  A   A#  B    C   C#  D   D#    E   F   F#  G
e ||0---1---2---3---4---5---6---7---|8---9---10--11-  12--13--14--15--||
b ||5---7---7---8---9---10--11--12--|13--14--15--16-  17--18--19--20--||
g ||9---10--11--12--13--14--15--16--|17--18  19--20-  21--22--23--24--||
D ||14--15--16--17--18--19--20--21--|22--23--24--25-  26--27--28--29--||
A ||19--20--21--22--24--25--26--27--|28--29--30--31-  32--33--34--35--||
E ||25--26--27--28--29--30--31--32--|33--34--35--36-  37--38--39--40--||
    E   F   F#  G   G#  A   A#  B    C   C#  D   D#
e ||12--13--14--15--16--17--18--19--|20--21--22--24-
b ||17--18--19--20--21--22--23--24--|25--26--27--28-
g ||21--22--23--24--25--26--27--28-
D ||
A ||
E ||

E

E  A  D  g  b  e
0  x  x  x  x  x
12 7  x  x  x  x
x  x  x  x  x  0
x  x  x  x  x  12

A

E  A  D  g  b  e
5  0  x  x  x  x  : A 110 Hz
17 12 7  2  x  x  : A 220 Hz
30 25 19 14 10 5  : A 440 Hz
x  x  x  x  22 17 : A 880 Hz

E

E  A  D  g  b  e
0                 : E 82.4Hz
12 7  2           :
x  19 14 9  5  0  :
x  x  x  21 17 12 : E 329.6Hz

Personal Jesus - Depeche Mode

    Riff 2             Riff 3
e|----------------|------------------|--- ?? --10---|
B|----------------|------------------| ---------7---|
G|----------------|-------4----------| ---1-----7---|
D|-------4--------|------------7--6--|----4-----7---| check those chord
A|----------------|-2-5p2----5-7--6--| ---4-----9---|
E|-2-5p2----5p2---|------------5--4--|---------10---|
| F#5            | B5         A5 G#5   C#sus4 Dmaj7
Chords/How to play it:
[[[[INTRO]]]] : Riff 1  :  e|-9----s14-----------------------------
                        F#m      (Riff 2 plays over F#m)
Reach out and touch faith
[[[[VERSE]]]]
(Riff 2 over next few lines)                                       (Riff 3)
Your own personal Jesus, someone to hear your prayers, someone who cares
(Riff 2, etc)                                                       (Riff 3)
Your own personal Jesus, someone to hear your prayers, someone who's there
(Riff 2 for four bars)
[[[[BRIDGE]]]]
F#m (No riff)                          A                      E
Feeling unknown, and you're all alone, flesh and bone, by the telephone
Bm                          C#sus4      Dmaj7  F#m (with riff 2)
Lift up the receiver, I'll make you a believer
F#m (No Riff)                         A
Take second best, put me to the test, things on your chest
   E                Bm                  C#msus4      Dmaj7
You need to confess, I will deliver, you know I'm a forgiver
F#m (With riff 1)         G#   G
                              Reach out and touch faith
F#m (etc)                 G#   G
                              Reach out and touch faith
[[[[VERSE]]]]
Your own personal Jesus, someone to hear your prayers, someone who cares
Your own personal Jesus, someone to hear your prayers,
             B5      A#5   A5   G#5
Someone who's there
(Following verse/chorus as above)
[[[[BRIDGE]]]]
Feeling unknown, and you're all alone, flesh and bone
By the telephone, lift up the receiver, I'll make you a believer
I will deliver, You know I'm a forgiver
Reach out and touch faith
Your own personal Jesus
Reach out and touch faith

Date: Tue, 12 Dec 95 15:51:22 0000 From: bmcphail Subject: TAB: Personal Jesus - Depeche Mode

This file is the author's own work and represents their interpretation of the song. You may only use this file for private study, scholarship, or research. #


Personal Jesus Tab by Marilyn Manson, www.Ultimate-Guitar.Com Ṗ Personal Jesus Tab @ 911Tabs.Com

I would say that I'm 100% sure that this is correct. 50% of it is my own work, while the other 45% goes to someone I know and about 5% I found on the internet (hope the person doesn't mind, but I did only used a little bit, most of it was the same as what I had anyway) But anyway here it is so enjoy

Tuning: Drop D

Intro:
|----------------------------------R
|----------------------------------E
|--------11----------------11------P till the verse
|-4-7-4--11--7-4----4-7-4--11--7-4-E
|-4-7-4--9---7-4----4-7-4--9---7-4-A
|-4-7-4------7-4----4-7-4------7-4-T

there is another little guitar part that guitar 2 plays right after the intro going into the verse but i havn't tabbed it(sorry)

Verse:

|----------------------------------|
|----------------------------------|
|--------11----------------11------| it's actually exactly the same as the
|-4-7-4--11--7-4----4-7-4--11--7-4-| intro, but I thought i'd put the verse
|-4-7-4--9---7-4----4-7-4--9---7-4-| down seperatly anyway
|-4-7-4------7-4----4-7-4------7-4-|

Then theres like a little fill later half way through the verse when he sings: “Someone who cares”

|-----------------------------------|
|-----------------------------------|
|-------11--------------------------|
|9-12-9-11-12-9--7--7-7-7--6--6-6-6-|
|9-12-9--9-12-9--7--7-7-7--6--6-6-6-|
|9-12-9----12-9--7--7-7-7--6--6-6-6-|

Then continue playing the verse:

|----------------------------------|
|----------------------------------|
|--------11----------------11------|
|-4-7-4--11--7-4----4-7-4--11--7-4-|
|-4-7-4--9---7-4----4-7-4--9---7-4-|
|-4-7-4------7-4----4-7-4------7-4-|

end of the verse:

|-----------------------------------|
|-----------------------------------|
|-------11--------------------------|
|9-12-9-11-12-9--7--7-7-7--6--6-6-6-|
|9-12-9--9-12-9--7--7-7-7--6--6-6-6-|
|9-12-9----12-9--7--7-7-7--6--6-6-6-|

Bridge: “Feeling unknown and you're all alone…”

|----------------------------------------|
|7-----7-----10-----15-----12------14----|
|X-----X-----X-------X------X-------X----|
|4-----4-----7------12------9------11----|
|----------------------------------------|
|----------------------------------------|

Then after he sings “I'll make you a believer” theres another little fill that guitar2 plays:

|-------|
|-------|
|-11~~~-| just hold the note for
|-------| like 2 seconds.
|-------|
|-------|

While guitar 1 just goes on playing the main riff (intro/verse):

|----------------------------------|
|----------------------------------|
|--------11----------------11------|
|-4-7-4--11--7-4----4-7-4--11--7-4-|
|-4-7-4--9---7-4----4-7-4--9---7-4-|
|-4-7-4------7-4----4-7-4------7-4-|

New verse: “Take second best,put me to the test”

|----------------------------------|
|----------------------------------|
|--------11----------------11------|
|-4-7-4--11--7-4----4-7-4--11--7-4-|
|-4-7-4--9---7-4----4-7-4--9---7-4-|
|-4-7-4------7-4----4-7-4------7-4-|

First guitar plays main riff:

  • ———————————-|
  • ———————————-|
  • ——–11—————-11——|
  • -4-7-4–11–7-4—-4-7-4–11–7-4-|
  • -4-7-4–9—7-4—-4-7-4–9—7-4-|
  • -4-7-4——7-4—-4-7-4——7-4-|

while guitar 2 plays the little fill:

  • ——-|
  • ——-|
  • -11~~~-|
  • ——-|
  • ——-|

Chorus: “reach out and touch faith”

  • ————————————-|
  • ————————————-|
  • —————-11————-11—-|
  • 6—-5—-4-7-4-11–7-4–4-7-4-11–7-|
  • 6—-5—-4-7-4–9–7-4–4-7-4–9–7-|
  • 6—-5—-4-7-4—–7-4–4-7-4—–7-|

Verse: “Your own personal Jesus”

  • ———————————-|
  • ———————————-|
  • ——–11—————-11——|
  • -4-7-4–11–7-4—-4-7-4–11–7-4-|
  • -4-7-4–9—7-4—-4-7-4–9—7-4-|
  • -4-7-4——7-4—-4-7-4——7-4-|

then again half way through the verse play: “someone who cares…”

  • ———————————–|
  • ———————————–|
  • ——-11————————–|
  • 9-12-9-11-12-9–7–7-7-7–6–6-6-6-|
  • 9-12-9–9-12-9–7–7-7-7–6–6-6-6-|
  • 9-12-9—-12-9–7–7-7-7–6–6-6-6-|

then carry on playing this: “your own, personal Jesus..”

  • ———————————-|
  • ———————————-|
  • ——–11—————-11——|
  • -4-7-4–11–7-4—-4-7-4–11–7-4-|
  • -4-7-4–9—7-4—-4-7-4–9—7-4-|
  • -4-7-4——7-4—-4-7-4——7-4-|

during the verse guitar2 plays the little fill again:

  • ——-|
  • ——-|
  • -11~~~-|
  • ——-|
  • ——-|

“Someone to hear your prayers”

  • ———————————-|
  • ———————————-|
  • ——–11—————-11——|
  • -4-7-4–11–7-4—-4-7-4–11–7-4-|
  • -4-7-4–9—7-4—-4-7-4–9—7-4-|
  • -4-7-4——7-4—-4-7-4——7-4-|

Chorus: “reach out and touch faith”

  • ————————————-|
  • ————————————-|
  • —————-11————-11—-|
  • 6—-5—-4-7-4-11–7-4–4-7-4-11–7-|
  • 6—-5—-4-7-4–9–7-4–4-7-4–9–7-|
  • 6—-5—-4-7-4—–7-4–4-7-4—–7-|

then on the drum beat:

|--------------R
|--------------E
|--------------P strum the same as
|XXX-XXX-XXX-X-E drum rhythm
|XXX-XXX-XXX-X-A
|XXX-XXX-XXX-X-T

Guitar 1: “Feeling unknown…”

  • ————————-|
  • ————————-|
  • ————————-| play quite lightly
  • -9(8x)-7(8x)-6(8x)-5(8x)-|
  • -9(8x)-7(8x)-6(8x)-5(8x)-|
  • -9(8x)-7(8x)-6(8x)-5(8x)-|

Guitar 2: play this softly in the back round:

  • ————–|
  • ————–|
  • ————–|
  • XXX-XXX-XXX-X-|
  • XXX-XXX-XXX-X-|
  • XXX-XXX-XXX-X-|

Verse: then play main riff:

  • ———————————-|
  • ———————————-|
  • ——–11—————-11——|
  • -4-7-4–11–7-4—-4-7-4–11–7-4-|
  • -4-7-4–9—7-4—-4-7-4–9—7-4-|
  • -4-7-4——7-4—-4-7-4——7-4-|
  • ———————————–|
  • ———————————–|
  • ——-11————————–|
  • 9-12-9-11-12-9–7–7-7-7–6–6-6-6-|
  • 9-12-9–9-12-9–7–7-7-7–6–6-6-6-|
  • 9-12-9—-12-9–7–7-7-7–6–6-6-6-|

Guitar 2:

  • ——-|
  • ——-|
  • -11~~~-|
  • ——-|
  • ——-|

Chorus:

  • ————————————-|
  • ————————————-|
  • —————-11————-11—-|
  • 6—-5—-4-7-4-11–7-4–4-7-4-11–7-|
  • 6—-5—-4-7-4–9–7-4–4-7-4–9–7-|
  • 6—-5—-4-7-4—–7-4–4-7-4—–7-|

and there you go

One new complete tab! Sorry if it seems a bit of mess, but it got

confusing with all the extra little fills and the 2 seperate guitars but ive tabbed as best as i can

If you have any questions or problems e-mail me rhcp_3454@hotmail.com

ROCK ON

[[RzR]]

                                                                             |
 ::1...+...2...+...3...+...4...+...:1...+...2...+...3...+...4...+...::
e ||--------------------------------|--------------------------------||
b ||--------------------------------|--------------------------------||
g ||--------------------------------|--------------------------------||
D ||--5--5--5/7--3---3--3/7-5-------|--------------------------------||
A ||--------------------------------|--------------------------------||
E ||-3--3--3-------0--0-------------|--------------------------------||

tg / gp3 / gp4

MISC

tablature.txt · Last modified: 2012/11/04 21:05 (external edit)
 
Except where otherwise noted, content on this wiki is licensed under the following license: CC Attribution-Share Alike 3.0 Unported
Recent changes RSS feed Donate Powered by PHP Valid XHTML 1.0 Valid CSS Driven by DokuWiki